Tabulatures

...so entstehen immer die besten Riffs ;-)
THE KNUTS - Inkontinenz love
From the Album DER FOERSTER VOM SILBERWALD
Copyright 2004 DASC
Version 1.0 - JANUARY 2005

Transcribed by: Dan
mail:Dan@theknuts.de

Check Out The Ultimate The Knuts tribute at:
http://www.theknuts.de

.. - palm mute / - slide up to
\ - slide down to ~ - vibrato
h - hammer on b - bend
p - pull off Suffixes for bend
ph - pinch harmonic
f - full bend h - half bend
* - see comment r - release t - tap bend
X - percussion mute ~ - vibrato bend
@ - slight palm mute () - ghost note, sustained note
% - repeat previous bar twice

Tabber's Note - (Much fun with the Tabs)

Tune to H

Riff A.1
|-------------------------------------------------------------------|
|-------------------------------------------------------------------|
|-------------------------------------------------------------------|Gtr
|-------------------------------------------------------------------| I
|-------------5-8-----------------------------5-8-7-7-7-7-----------|
|-0-0-0-0-5-7-----0-0-0-0-5-7-4-7-0-0-0-0-5-7-------------6-6-6-6---|


Riff A.2
|-------------------------------------------------------------------|
|-------------------------------------------------------------------|
|-------------------------------------------------------------------|Gtr
|-------------------------------------------------------------------| I
|-------------5-8-----------------------------5-8-7-----------------|
|-0-0-0-0-5-7-----0-0-0-0-5-7-4-7-0-0-0-0-5-7-----------------------|
.

Riff B
|---------------|
|---------------|
|---------------|Gtr
|--------3------| I
|--4--3--1--2---|
|--4--3-----2---|

Riff C.1 3x
|-------------------------------------------------------------------|
|-------------------------------------------------------------------|
|-------------------------------------------------------------------|Gtr
|-----------------1-1-1-1-1-1-1-1-----------------------------------| I
|-------------------------------------------------1-1-1-1-----------|
|-1-1-1-1-1-1-1-1-----------------4-4-4-4-3-3-3-3---------2-2-2-2---|

 

Riff C.2
|------------------------------------------------------------|
|------------------------------------------------------------|
|------------------------------------------------------------|Gtr
|-----------------1-1-1-1-1-1-1-1----------------------------| I
|-------------------------------------------------1-*--------|
|-1-1-1-1-1-1-1-1-----------------4-4-4-4-3-3-3-3------------|
*) half clock .

 

Riff D.1 3/4clock 3x
|---------------------------|
|---------------------------|
|---------------------------|Gtr
|---------------------------| I
|---------------5-8-7-7-----|
|-0-5-8-0-4-7-0---------6---|

 

Riff D.2
|-----------------------------|
|-----------------------------|
|-----------------------------|Gtr
|---------------------5-------| I
|---------------5-7-8---8-7---|
|-0-5-8-0-4-7-0---------------|

Repeat Riff B (variation)

 

Riff E
|-------------------------------------------------------------------|
|-------------------------------------------------------------------|
|-------------------------------------------------------------------|Gtr
|-----------------4-4-4-4-4-4-----------------7-7-5-5-5-5-5-5-5-5---| I
|-2-2-2-2-2-2-5-5-2-2-2-2-2-2-5-5-4-4-4-4-4-4-5-5-3-3-3-3-3-3-3-3---|
|-0-0-0-0-0-0-3-3-------------3-3-2-2-2-2-2-2-----------------------|
|
|-------------------------------------------------------------------|
|-------------------------------------------------------------------|
|-------------------------------------------------------------------|Gtr
|-----------------4---------------------------7---5-----------------| II
|-2-----------5---2-----------5---4-----------5---3-----------------|
|-0-----------3---------------3---2---------------------------------|

 

Riff F
|-------------------------------------------------------------------|
|-------------------------------------------------------------------|
|-------------------------------------------------------------------|Gtr
|-------------------------------------------------------------------| I
|-5-5-5-------5-5-6-6-6-------6-6-5-5-5-------5-5-3-3-3-------3-3---|
|-------3-3-3-----------3-3-3-----------3-3-3-----------2-2-2-------|

 

Repeat Riff A.1 3x

Riff A.3 (End)
|-------------------------------------------------------------------|
|-------------------------------------------------------------------|
|-------------------------------------------------------------------|Gtr
|-------------------------------------------------------5-7---------| I
|-------------5-8-----------------------------5-8-5-7-8-------------|
|-0-0-0-0-5-7-----0-0-0-0-5-7-4-7-0-0-0-0-5-7-----------------------|
| |
|-------------------------------------------------------------------|
|-------------------------------------------------------------------|
|-------------------------------------------------------------------|Gtr
|-------------------------------------------------------------------| II
|-------------5-8-----------------------------5-8-----5-7-8---------|
|-0-0-0-0-5-7-----0-0-0-0-5-7-4-7-0-0-0-0-5-7-----6-8---------------|



Copyright 2016 All rights reserved Webmaster: DasC